Don't click or your IP will be banned


Les Brers In A Minor

Les Brers In A Minor
Dickey Betts
Copyright 1972 and 1974 No Exit Music Co.
Unichappell Music Inc. (BMI) & F.R. Betts Music Co. (BMI)

Instrumental


Added:  Friday, October 05, 2001
Submitter:  Lana Michelizzi
Score:
hits: 14677
Language: eng

  

[ Back to lyrics index ] [ Post comment ]

Posted by slowhand6 on Jan 28, 2008 - 01:42 PM
My score:

Les Brers In A Minor 
Dickey Betts
Copyright 1972 and 1974 No Exit Music Co.
Unichappell Music Inc. (BMI) & F.R. Betts Music Co. (BMI)

Instrumental

E-----------7--8--7--8--10--8--7----------
B------10-----------------------------10-----
G-8/9--------------------------------------9-
D-----------------------------------------------
A-----------------------------------------------
E-----------------------------------------------

(sydogsys)
First part (above) played in different position

E--------5--7--8--7--8--10--8-- 7----5----
B---3/5--------------------------------------5-
G------------------------------------------------
D------------------------------------------------
A------------------------------------------------
E------------------------------------------------


E-----------7--8--7--8--10--8--10---15--12-
B------10------------------------------------------
G-8/9----------------------------------------------
D----------------------------------------------------
A----------------------------------------------------
E----------------------------------------------------

E-12---15--17--15--12------------------------------------------------------ ------
B--------------------------15--13--12------------------1212/13------12---- 
G----------------------------------------14----12--14---------------------- ----14-
D----------------------------------------------------------------------14-- ------------
A-------------------------------------------------------------------------- --------------
E-------------------------------------------------------------------------- --------------

E-10----12----8----15----12----12-----13----10----12----10----12----8----10 --
B-8------10----6----13----10----10----11-----8-----10-----8-----10----6---- --8--
G-7------9-----5----12-----9------9-----10-----7-----9-------7-----9------5 ----7---
D-9------11---7----14-----11----11----12-----9-----11-----9-----11----7---- 9---
A-------------------------------------------------------------------------- --------------------
E-------------------------------------------------------------------------- --------------------

(skydogsys)

The jam is on the two chords of Les Brers is
Am-D

slowhand6

Alternate scale for playing the head:

E--------------------------------------------------------
B-----------12--13--12--13--15--13--12--------
G------14------------------------------------14------
D-14----------------------------------------------14-
A--------------------------------------------------------
E--------------------------------------------------------

E---------------------------------------------15--12--12-
B-----------12--13--12--13--15--13--12-------------
G------14---------------------------------------------------
D-14--------------------------------------------------------
A------------------------------------------------------------
E------------------------------------------------------------


Privacy | Terms of Service
The ALLMAN BROTHERS BAND name, The ALLMAN BROTHERS name, likenesses, logos, mushroom design and peach truck are all registered trademarks of THE ABB MERCHANDISING CO., INC. whose rights are specifically reserved. Any artwork, visual, or audio representations used on this web site CONTAINING ANY REGISTERED TRADEMARKS are under license from The ABB MERCHANDISING CO., INC. A REVOCABLE, GRATIS LICENSE IS GRANTED TO ALL REGISTERED PEACH CORP MEMBERS FOR The DOWNLOADING OF ONE COPY FOR PERSONAL USE ONLY. ANY DISTRIBUTION OR REPRODUCTION OF THE TRADEMARKS CONTAINED HEREIN ARE PROHIBITED AND ARE SPECIFICALLY RESERVED BY THE ABB MERCHANDISING CO.,INC.
site by Hittin' the Web Group with www.experiencewasabi3d.com